İstiklal Marşının Gitar Notaları

Konusu 'Müzik Kutusu' forumundadır ve Elif tarafından 26 Şubat 2013 başlatılmıştır.

  1. Elif

    Elif Yönetici Admin

    Zeki Üngör İstiklal Marşı Notaları

    İstiklal Marşı Gitar notaları

    İstiklal Marşımızın gitar notaları aşağıda, İstiklal Marşı Gitar Tabı ile birlikte gösterilmiştir.


    [​IMG]


    4 4
    1 1

    e|-10---10-10---11----11--11----10-10-10-10-10-----|
    B|-------------------------------------------------|
    G|-7----7--7----8-----8---8-----7--7--7--7--7------|
    D|-0----0--0----0-----0---0-----0--0--0--0--0------|
    A|-------------------------------------------------|
    E|-------------------------------------------------|
    4
    4 2 4 3 4 4 4 2
    3 2 3 1 2 1 1 4 3 1 1 2 1 1 2 1 2 1 1

    e|--------3-5-6--2-5-3-------3--3-2-3--8-10--11--10-7-10-8|
    B|-3-2-3--3------1---3-------3-------------------6----8---|
    G|--------3-2-0------0-----------------8-7-------0--------|
    D|----------0----0-----0---0-----------------10-----------|
    A|---------------------1-0-1------------------------------|
    E|---------------------------3----------------------------|

    2 4 4 2 3 3 3 4 3 4 3 3 3
    1 1 2 1 3 1 1 1 1 1 1 3 1 1 1 1

    e|---------10-9-10--5--5--8-6-2--3--5--6--8-10-11-13-15-13|
    B|-1-----1------------------------------------------------|
    G|------------------2------------0----------------------10|
    D|-1-0-1------------0--0--0---4-----4--3----0-------------|
    A|-------3------------------7-------------6-------12-11---|
    E|-------------------------------3-------------8----------|

    3 3
    2 2 3 4
    3 1 1 3 1 3 1 1 2 1 1 2 4

    e|-1-0-1--10-8-6--------------------5---10--8-6-5-6----|
    B|----------------------------3-2-3---3-7-----------8--|
    G|-----------------------3--------------------------0--|
    D|-----------7-8---0---0------------0-0-0--------------|
    A|-----------8-8-----3---1-----------------------------|
    E|-------------6---------------------------------------|

    4 3
    1 2 2 2 2 2 3
    3 3 1 1 1 1 1 1

    e|-15-13-11--10-8--6-5--3-10---------3--||
    B|-------10--11------2------------3-----||
    G|-0--12-------------3--0---------2--0--|| TEKRAR
    D|--------------10-0-0----0-------4--0--||
    A|------(0)--(1-3)----------------------||
    E|---(3)-----------------------------3--||